  0
SECTION
  2
HEADER
  9
$ACADVER
  1
AC1015
  9
$ACADMAINTVER
 70
     6
  9
$DWGCODEPAGE
  3
ANSI_1254
  9
$INSBASE
 10
0.0
 20
0.0
 30
0.0
  9
$EXTMIN
 10
0.0
 20
0.0
 30
0.0
  9
$EXTMAX
 10
279.4
 20
215.9
 30
0.0
  9
$LIMMIN
 10
0.0
 20
0.0
  9
$LIMMAX
 10
279.4
 20
215.9
  9
$ORTHOMODE
 70
     0
  9
$REGENMODE
 70
     1
  9
$FILLMODE
 70
     1
  9
$QTEXTMODE
 70
     0
  9
$MIRRTEXT
 70
     1
  9
$LTSCALE
 40
1.0
  9
$ATTMODE
 70
     1
  9
$TEXTSIZE
 40
3.5
  9
$TRACEWID
 40
1.0
  9
$TEXTSTYLE
  7
Standard
  9
$CLAYER
  8
0
  9
$CELTYPE
  6
ByLayer
  9
$CECOLOR
 62
   256
  9
$CELTSCALE
 40
1.0
  9
$DISPSILH
 70
     0
  9
$DIMSCALE
 40
1.0
  9
$DIMASZ
 40
3.5
  9
$DIMEXO
 40
1.0
  9
$DIMDLI
 40
3.75
  9
$DIMRND
 40
0.0
  9
$DIMDLE
 40
0.0
  9
$DIMEXE
 40
1.0
  9
$DIMTP
 40
0.0
  9
$DIMTM
 40
0.0
  9
$DIMTXT
 40
3.5
  9
$DIMCEN
 40
2.5
  9
$DIMTSZ
 40
0.0
  9
$DIMTOL
 70
     0
  9
$DIMLIM
 70
     0
  9
$DIMTIH
 70
     1
  9
$DIMTOH
 70
     1
  9
$DIMSE1
 70
     0
  9
$DIMSE2
 70
     0
  9
$DIMTAD
 70
     1
  9
$DIMZIN
 70
     0
  9
$DIMBLK
  1

  9
$DIMASO
 70
     1
  9
$DIMSHO
 70
     1
  9
$DIMPOST
  1

  9
$DIMAPOST
  1

  9
$DIMALT
 70
     0
  9
$DIMALTD
 70
     3
  9
$DIMALTF
 40
0.0393700787
  9
$DIMLFAC
 40
1.0
  9
$DIMTOFL
 70
     1
  9
$DIMTVP
 40
0.0
  9
$DIMTIX
 70
     0
  9
$DIMSOXD
 70
     0
  9
$DIMSAH
 70
     0
  9
$DIMBLK1
  1

  9
$DIMBLK2
  1

  9
$DIMSTYLE
  2
ISO-25
  9
$DIMCLRD
 70
     0
  9
$DIMCLRE
 70
     0
  9
$DIMCLRT
 70
     0
  9
$DIMTFAC
 40
1.0
  9
$DIMGAP
 40
1.524
  9
$DIMJUST
 70
     0
  9
$DIMSD1
 70
     0
  9
$DIMSD2
 70
     0
  9
$DIMTOLJ
 70
     0
  9
$DIMTZIN
 70
     0
  9
$DIMALTZ
 70
     0
  9
$DIMALTTZ
 70
     0
  9
$DIMUPT
 70
     0
  9
$DIMDEC
 70
     2
  9
$DIMTDEC
 70
     2
  9
$DIMALTU
 70
     2
  9
$DIMALTTD
 70
     3
  9
$DIMTXSTY
  7
Standard
  9
$DIMAUNIT
 70
     0
  9
$DIMADEC
 70
     2
  9
$DIMALTRND
 40
0.0
  9
$DIMAZIN
 70
     0
  9
$DIMDSEP
 70
    44
  9
$DIMATFIT
 70
     3
  9
$DIMFRAC
 70
     0
  9
$DIMLDRBLK
  1

  9
$DIMLUNIT
 70
     2
  9
$DIMLWD
 70
    -2
  9
$DIMLWE
 70
    -2
  9
$DIMTMOVE
 70
     0
  9
$LUNITS
 70
     2
  9
$LUPREC
 70
     2
  9
$SKETCHINC
 40
1.0
  9
$FILLETRAD
 40
10.0
  9
$AUNITS
 70
     0
  9
$AUPREC
 70
     2
  9
$MENU
  1
.
  9
$ELEVATION
 40
0.0
  9
$PELEVATION
 40
0.0
  9
$THICKNESS
 40
0.0
  9
$LIMCHECK
 70
     0
  9
$CHAMFERA
 40
0.0
  9
$CHAMFERB
 40
0.0
  9
$CHAMFERC
 40
0.0
  9
$CHAMFERD
 40
0.0
  9
$SKPOLY
 70
     0
  9
$TDCREATE
 40
2458985.663637824
  9
$TDUCREATE
 40
2458985.538637824
  9
$TDUPDATE
 40
2458985.663638079
  9
$TDUUPDATE
 40
2458985.538638079
  9
$TDINDWG
 40
0.0000000116
  9
$TDUSRTIMER
 40
0.0000000116
  9
$USRTIMER
 70
     1
  9
$ANGBASE
 50
0.0
  9
$ANGDIR
 70
     0
  9
$PDMODE
 70
     0
  9
$PDSIZE
 40
-1.0
  9
$PLINEWID
 40
0.0
  9
$SPLFRAME
 70
     0
  9
$SPLINETYPE
 70
     6
  9
$SPLINESEGS
 70
     8
  9
$HANDSEED
  5
C2
  9
$SURFTAB1
 70
     6
  9
$SURFTAB2
 70
     6
  9
$SURFTYPE
 70
     6
  9
$SURFU
 70
     6
  9
$SURFV
 70
     6
  9
$UCSBASE
  2

  9
$UCSNAME
  2

  9
$UCSORG
 10
0.0
 20
0.0
 30
0.0
  9
$UCSXDIR
 10
1.0
 20
0.0
 30
0.0
  9
$UCSYDIR
 10
0.0
 20
1.0
 30
0.0
  9
$UCSORTHOREF
  2

  9
$UCSORTHOVIEW
 70
     0
  9
$UCSORGTOP
 10
0.0
 20
0.0
 30
0.0
  9
$UCSORGBOTTOM
 10
0.0
 20
0.0
 30
0.0
  9
$UCSORGLEFT
 10
0.0
 20
0.0
 30
0.0
  9
$UCSORGRIGHT
 10
0.0
 20
0.0
 30
0.0
  9
$UCSORGFRONT
 10
0.0
 20
0.0
 30
0.0
  9
$UCSORGBACK
 10
0.0
 20
0.0
 30
0.0
  9
$PUCSBASE
  2

  9
$PUCSNAME
  2

  9
$PUCSORG
 10
0.0
 20
0.0
 30
0.0
  9
$PUCSXDIR
 10
1.0
 20
0.0
 30
0.0
  9
$PUCSYDIR
 10
0.0
 20
1.0
 30
0.0
  9
$PUCSORTHOREF
  2

  9
$PUCSORTHOVIEW
 70
     0
  9
$PUCSORGTOP
 10
0.0
 20
0.0
 30
0.0
  9
$PUCSORGBOTTOM
 10
0.0
 20
0.0
 30
0.0
  9
$PUCSORGLEFT
 10
0.0
 20
0.0
 30
0.0
  9
$PUCSORGRIGHT
 10
0.0
 20
0.0
 30
0.0
  9
$PUCSORGFRONT
 10
0.0
 20
0.0
 30
0.0
  9
$PUCSORGBACK
 10
0.0
 20
0.0
 30
0.0
  9
$USERI1
 70
     0
  9
$USERI2
 70
     0
  9
$USERI3
 70
     0
  9
$USERI4
 70
     0
  9
$USERI5
 70
     0
  9
$USERR1
 40
0.0
  9
$USERR2
 40
0.0
  9
$USERR3
 40
0.0
  9
$USERR4
 40
0.0
  9
$USERR5
 40
0.0
  9
$WORLDVIEW
 70
     1
  9
$SHADEDGE
 70
     3
  9
$SHADEDIF
 70
    70
  9
$TILEMODE
 70
     1
  9
$MAXACTVP
 70
    64
  9
$PINSBASE
 10
0.0
 20
0.0
 30
0.0
  9
$PLIMCHECK
 70
     0
  9
$PEXTMIN
 10
1.0000000000E+20
 20
1.0000000000E+20
 30
1.0000000000E+20
  9
$PEXTMAX
 10
-1.0000000000E+20
 20
-1.0000000000E+20
 30
-1.0000000000E+20
  9
$PLIMMIN
 10
0.0
 20
0.0
  9
$PLIMMAX
 10
420.0
 20
297.0
  9
$UNITMODE
 70
     0
  9
$VISRETAIN
 70
     1
  9
$PLINEGEN
 70
     0
  9
$PSLTSCALE
 70
     1
  9
$TREEDEPTH
 70
  3020
  9
$CMLSTYLE
  2
Standard
  9
$CMLJUST
 70
     0
  9
$CMLSCALE
 40
20.0
  9
$PROXYGRAPHICS
 70
     1
  9
$MEASUREMENT
 70
     1
  9
$CELWEIGHT
370
    -1
  9
$ENDCAPS
280
     0
  9
$JOINSTYLE
280
     0
  9
$LWDISPLAY
290
     1
  9
$INSUNITS
 70
     4
  9
$HYPERLINKBASE
  1

  9
$STYLESHEET
  1

  9
$XEDIT
290
     1
  9
$CEPSNTYPE
380
     0
  9
$PSTYLEMODE
290
     1
  9
$FINGERPRINTGUID
  2
{63324637-8c97-4863-bf99-0372c86ddc79}
  9
$VERSIONGUID
  2
{FAEB1C32-E019-11D5-929B-00C0DF256EC4}
  9
$EXTNAMES
290
     1
  9
$PSVPSCALE
 40
0.0
  9
$OLESTARTUP
290
     0
  0
ENDSEC
  0
SECTION
  2
CLASSES
  0
CLASS
  1
ACDBDICTIONARYWDFLT
  2
AcDbDictionaryWithDefault
  3
ObjectDBX Classes
 90
        0
280
     0
281
     0
  0
CLASS
  1
VISUALSTYLE
  2
AcDbVisualStyle
  3
ObjectDBX Classes
 90
     4095
280
     0
281
     0
  0
CLASS
  1
MATERIAL
  2
AcDbMaterial
  3
ObjectDBX Classes
 90
     1153
280
     0
281
     0
  0
CLASS
  1
SCALE
  2
AcDbScale
  3
ObjectDBX Classes
 90
     1153
280
     0
281
     0
  0
CLASS
  1
TABLESTYLE
  2
AcDbTableStyle
  3
ObjectDBX Classes
 90
     4095
280
     0
281
     0
  0
CLASS
  1
MLEADERSTYLE
  2
AcDbMLeaderStyle
  3
ACDB_MLEADERSTYLE_CLASS
 90
     4095
280
     0
281
     0
  0
CLASS
  1
SUN
  2
AcDbSun
  3
SCENEOE
 90
     1153
280
     0
281
     0
  0
CLASS
  1
ACDBPLACEHOLDER
  2
AcDbPlaceHolder
  3
ObjectDBX Classes
 90
        0
280
     0
281
     0
  0
CLASS
  1
LAYOUT
  2
AcDbLayout
  3
ObjectDBX Classes
 90
        0
280
     0
281
     0
  0
ENDSEC
  0
SECTION
  2
TABLES
  0
TABLE
  2
VPORT
  5
8
330
0
100
AcDbSymbolTable
 70
     1
  0
VPORT
  5
29
330
8
100
AcDbSymbolTableRecord
100
AcDbViewportTableRecord
  2
*Active
 70
     0
 10
0.0
 20
0.0
 11
1.0
 21
1.0
 12
139.7
 22
107.95
 13
0.0
 23
0.0
 14
10.0
 24
10.0
 15
10.0
 25
10.0
 16
0.0
 26
0.0
 36
1.0
 17
0.0
 27
0.0
 37
0.0
 40
215.9
 41
1.2941176471
 42
50.0
 43
0.0
 44
0.0
 50
0.0
 51
0.0
 71
     0
 72
  2000
 73
     1
 74
     3
 75
     0
 76
     0
 77
     0
 78
     0
281
     0
 65
     1
110
0.0
120
0.0
130
0.0
111
1.0
121
0.0
131
0.0
112
0.0
122
1.0
132
0.0
 79
     0
146
0.0
  0
ENDTAB
  0
TABLE
  2
LTYPE
  5
5
330
0
100
AcDbSymbolTable
 70
     6
  0
LTYPE
  5
14
330
5
100
AcDbSymbolTableRecord
100
AcDbLinetypeTableRecord
  2
ByBlock
 70
     0
  3

 72
    65
 73
     0
 40
0.0
  0
LTYPE
  5
15
330
5
100
AcDbSymbolTableRecord
100
AcDbLinetypeTableRecord
  2
ByLayer
 70
     0
  3

 72
    65
 73
     0
 40
0.0
  0
LTYPE
  5
16
330
5
100
AcDbSymbolTableRecord
100
AcDbLinetypeTableRecord
  2
Continuous
 70
     0
  3
Solid line
 72
    65
 73
     0
 40
0.0
  0
LTYPE
  5
6E
330
5
100
AcDbSymbolTableRecord
100
AcDbLinetypeTableRecord
  2
HIDDEN
 70
     0
  3
Hidden __ __ __ __ __ __ __ __ __ __ __ __ __ __
 72
    65
 73
     2
 40
1.905
 49
1.27
 74
     0
 49
-0.635
 74
     0
  0
LTYPE
  5
6F
330
5
100
AcDbSymbolTableRecord
100
AcDbLinetypeTableRecord
  2
PHANTOM
 70
     0
  3
Phantom ______  __  __  ______  __  __  ______
 72
    65
 73
     6
 40
12.7
 49
6.35
 74
     0
 49
-1.27
 74
     0
 49
1.27
 74
     0
 49
-1.27
 74
     0
 49
1.27
 74
     0
 49
-1.27
 74
     0
  0
LTYPE
  5
70
330
5
100
AcDbSymbolTableRecord
100
AcDbLinetypeTableRecord
  2
CENTER
 70
     0
  3
Center ____ _ ____ _ ____ _ ____ _ ____ _ ____
 72
    65
 73
     4
 40
10.16
 49
6.35
 74
     0
 49
-1.27
 74
     0
 49
1.27
 74
     0
 49
-1.27
 74
     0
  0
LTYPE
  5
71
330
5
100
AcDbSymbolTableRecord
100
AcDbLinetypeTableRecord
  2
CENTERX2
 70
     0
  3
Center (2x) ________  __  ________  __  _____
 72
    65
 73
     4
 40
20.32
 49
12.7
 74
     0
 49
-2.54
 74
     0
 49
2.54
 74
     0
 49
-2.54
 74
     0
  0
LTYPE
  5
72
330
5
100
AcDbSymbolTableRecord
100
AcDbLinetypeTableRecord
  2
DOT2
 70
     0
  3
Dot (.5x) ........................................
 72
    65
 73
     2
 40
0.635
 49
0.0
 74
     0
 49
-0.635
 74
     0
  0
ENDTAB
  0
TABLE
  2
LAYER
  5
2
330
0
100
AcDbSymbolTable
 70
    17
  0
LAYER
  5
10
330
2
100
AcDbSymbolTableRecord
100
AcDbLayerTableRecord
  2
0
 70
     0
 62
     7
  6
Continuous
370
    -3
390
F
  0
LAYER
  5
73
330
2
100
AcDbSymbolTableRecord
100
AcDbLayerTableRecord
  2
FORMAT
 70
     0
 62
     7
  6
Continuous
370
    -3
390
F
  0
LAYER
  5
74
330
2
100
AcDbSymbolTableRecord
100
AcDbLayerTableRecord
  2
YARDIMCI_GEOMETRI
 70
     0
 62
    -6
  6
Continuous
290
     0
370
    -3
390
F
  0
LAYER
  5
75
330
2
100
AcDbSymbolTableRecord
100
AcDbLayerTableRecord
  2
SAYFA_CERCEVESI
 70
     0
 62
     7
  6
Continuous
370
    25
390
F
  0
LAYER
  5
76
330
2
100
AcDbSymbolTableRecord
100
AcDbLayerTableRecord
  2
ANTET
 70
     0
 62
     7
  6
Continuous
370
    -3
390
F
  0
LAYER
  5
77
330
2
100
AcDbSymbolTableRecord
100
AcDbLayerTableRecord
  2
OLCU
 70
     0
 62
   150
  6
Continuous
370
    -3
390
F
  0
LAYER
  5
78
330
2
100
AcDbSymbolTableRecord
100
AcDbLayerTableRecord
  2
METIN
 70
     0
 62
    96
  6
Continuous
370
    -3
390
F
  0
LAYER
  5
79
330
2
100
AcDbSymbolTableRecord
100
AcDbLayerTableRecord
  2
BALON
 70
     0
 62
     5
  6
Continuous
370
    -3
390
F
  0
LAYER
  5
7A
330
2
100
AcDbSymbolTableRecord
100
AcDbLayerTableRecord
  2
VURGU
 70
     0
 62
     7
  6
Continuous
370
    -3
390
F
  0
LAYER
  5
7B
330
2
100
AcDbSymbolTableRecord
100
AcDbLayerTableRecord
  2
SILIK
 70
     0
 62
     7
  6
Continuous
370
    -3
390
F
  0
LAYER
  5
7C
330
2
100
AcDbSymbolTableRecord
100
AcDbLayerTableRecord
  2
MODEL
 70
     0
 62
     7
  6
Continuous
370
    -3
390
F
  0
LAYER
  5
7D
330
2
100
AcDbSymbolTableRecord
100
AcDbLayerTableRecord
  2
DETAYLANDıRMA
 70
     0
 62
   190
  6
Continuous
370
    -3
390
F
  0
LAYER
  5
7E
330
2
100
AcDbSymbolTableRecord
100
AcDbLayerTableRecord
  2
TOLERANS
 70
     0
 62
   230
  6
Continuous
370
    -3
390
F
  0
LAYER
  5
7F
330
2
100
AcDbSymbolTableRecord
100
AcDbLayerTableRecord
  2
MERKEZ_CIZGILERI
 70
     0
 62
    30
  6
Continuous
370
    -3
390
F
  0
LAYER
  5
80
330
2
100
AcDbSymbolTableRecord
100
AcDbLayerTableRecord
  2
KESIT-DETAY_CIZGILERI
 70
     0
 62
     7
  6
Continuous
370
    -3
390
F
  0
LAYER
  5
81
330
2
100
AcDbSymbolTableRecord
100
AcDbLayerTableRecord
  2
\U+041E\U+0421\U+0415\U+0412\U+042B\U+0415
 70
     0
 62
     7
  6
Continuous
370
    -3
390
F
  0
LAYER
  5
82
330
2
100
AcDbSymbolTableRecord
100
AcDbLayerTableRecord
  2
\U+0412\U+041E\U+0414\U+042F\U+041D\U+042B\U+0415_\U+0417\U+041D\U+0410\U+041A\U+0418
 70
     0
 62
    11
  6
Continuous
370
    -3
390
F
  0
ENDTAB
  0
TABLE
  2
STYLE
  5
3
330
0
100
AcDbSymbolTable
 70
     1
  0
STYLE
  5
11
330
3
100
AcDbSymbolTableRecord
100
AcDbTextStyleTableRecord
  2
Standard
 70
     0
 40
0.0
 41
1.0
 50
0.0
 71
     0
 42
3.5
  3
txt
  4

  0
ENDTAB
  0
TABLE
  2
VIEW
  5
6
330
0
100
AcDbSymbolTable
 70
     0
  0
ENDTAB
  0
TABLE
  2
UCS
  5
7
330
0
100
AcDbSymbolTable
 70
     0
  0
ENDTAB
  0
TABLE
  2
APPID
  5
9
330
0
100
AcDbSymbolTable
 70
     1
  0
APPID
  5
12
330
9
100
AcDbSymbolTableRecord
100
AcDbRegAppTableRecord
  2
ACAD
 70
     0
  0
ENDTAB
  0
TABLE
  2
DIMSTYLE
  5
A
330
0
100
AcDbSymbolTable
 70
     1
100
AcDbDimStyleTable
  0
DIMSTYLE
105
27
330
A
100
AcDbSymbolTableRecord
100
AcDbDimStyleTableRecord
  2
ISO-25
 70
     0
 41
2.5
 42
0.625
 43
3.75
 44
1.25
 73
     0
 74
     0
 77
     1
 78
     8
140
2.5
141
2.5
143
0.0393700787
147
0.625
171
     3
172
     1
178
     0
271
     2
272
     2
274
     3
278
    44
283
     0
284
     8
340
11
  0
ENDTAB
  0
TABLE
  2
BLOCK_RECORD
  5
1
330
0
100
AcDbSymbolTable
 70
     1
  0
BLOCK_RECORD
  5
1F
330
1
100
AcDbSymbolTableRecord
100
AcDbBlockTableRecord
  2
*Model_Space
340
22
  0
BLOCK_RECORD
  5
1B
330
1
100
AcDbSymbolTableRecord
100
AcDbBlockTableRecord
  2
*Paper_Space
340
1E
  0
BLOCK_RECORD
  5
23
330
1
100
AcDbSymbolTableRecord
100
AcDbBlockTableRecord
  2
*Paper_Space0
340
26
  0
ENDTAB
  0
ENDSEC
  0
SECTION
  2
BLOCKS
  0
BLOCK
  5
20
330
1F
100
AcDbEntity
  8
0
100
AcDbBlockBegin
  2
*Model_Space
 70
     0
 10
0.0
 20
0.0
 30
0.0
  3
*Model_Space
  1

  0
ENDBLK
  5
21
330
1F
100
AcDbEntity
  8
0
100
AcDbBlockEnd
  0
BLOCK
  5
1C
330
1B
100
AcDbEntity
 67
     1
  8
0
100
AcDbBlockBegin
  2
*Paper_Space
 70
     0
 10
0.0
 20
0.0
 30
0.0
  3
*Paper_Space
  1

  0
ENDBLK
  5
1D
330
1B
100
AcDbEntity
 67
     1
  8
0
100
AcDbBlockEnd
  0
BLOCK
  5
24
330
23
100
AcDbEntity
  8
0
100
AcDbBlockBegin
  2
*Paper_Space0
 70
     0
 10
0.0
 20
0.0
 30
0.0
  3
*Paper_Space0
  1

  0
ENDBLK
  5
25
330
23
100
AcDbEntity
  8
0
100
AcDbBlockEnd
  0
ENDSEC
  0
SECTION
  2
ENTITIES
  0
CIRCLE
  5
83
330
1F
100
AcDbEntity
  8
0
  6
Continuous
 62
     7
370
    25
100
AcDbCircle
 10
138.6873615402
 20
110.1938600909
 30
0.0
 40
315.0
  0
CIRCLE
  5
84
330
1F
100
AcDbEntity
  8
0
  6
Continuous
 62
     7
370
    25
100
AcDbCircle
 10
138.6873615402
 20
110.1938600909
 30
0.0
 40
277.6
  0
CIRCLE
  5
85
330
1F
100
AcDbEntity
  8
0
  6
Continuous
 62
     7
370
    25
100
AcDbCircle
 10
138.6873615402
 20
110.1938600909
 30
0.0
 40
322.5
  0
CIRCLE
  5
86
330
1F
100
AcDbEntity
  8
0
  6
Continuous
 62
     7
370
    25
100
AcDbCircle
 10
138.6873615402
 20
110.1938600909
 30
0.0
 40
345.0
  0
LINE
  5
87
330
1F
100
AcDbEntity
  8
0
  6
Continuous
 62
     7
370
    25
100
AcDbLine
 10
483.6873615402
 20
736.2746582573
 30
0.0
 11
483.6873615402
 21
786.2746582573
 31
0.0
  0
LINE
  5
88
330
1F
100
AcDbEntity
  8
0
  6
Continuous
 62
     7
370
    25
100
AcDbLine
 10
-206.3126384598
 20
786.2746582573
 30
0.0
 11
-206.3126384598
 21
736.2746582573
 31
0.0
  0
LINE
  5
89
330
1F
100
AcDbEntity
  8
0
  6
Continuous
 62
     7
370
    25
100
AcDbLine
 10
461.1873615402
 20
786.2746582573
 30
0.0
 11
453.6873615402
 21
811.2746582573
 31
0.0
  0
LINE
  5
8A
330
1F
100
AcDbEntity
  8
0
  6
Continuous
 62
     7
370
    25
100
AcDbLine
 10
-176.3126384598
 20
811.2746582573
 30
0.0
 11
-183.8126384598
 21
786.2746582573
 31
0.0
  0
LINE
  5
8B
330
1F
100
AcDbEntity
  8
0
  6
Continuous
 62
     7
370
    25
100
AcDbLine
 10
453.6873615402
 20
811.2746582573
 30
0.0
 11
453.6873615402
 21
856.2746582573
 31
0.0
  0
LINE
  5
8C
330
1F
100
AcDbEntity
  8
0
  6
Continuous
 62
     7
370
    25
100
AcDbLine
 10
-176.3126384598
 20
856.2746582573
 30
0.0
 11
-176.3126384598
 21
811.2746582573
 31
0.0
  0
LINE
  5
8D
330
1F
100
AcDbEntity
  8
0
  6
Continuous
 62
     7
370
    25
100
AcDbLine
 10
483.6873615402
 20
736.2746582573
 30
0.0
 11
-206.3126384598
 21
736.2746582573
 31
0.0
  0
LINE
  5
8E
330
1F
100
AcDbEntity
  8
0
  6
Continuous
 62
     7
370
    25
100
AcDbLine
 10
483.6873615402
 20
786.2746582573
 30
0.0
 11
-206.3126384598
 21
786.2746582573
 31
0.0
  0
LINE
  5
8F
330
1F
100
AcDbEntity
  8
0
  6
Continuous
 62
     7
370
    25
100
AcDbLine
 10
453.6873615402
 20
811.2746582573
 30
0.0
 11
-176.3126384598
 21
811.2746582573
 31
0.0
  0
LINE
  5
90
330
1F
100
AcDbEntity
  8
0
  6
Continuous
 62
     7
370
    25
100
AcDbLine
 10
453.6873615402
 20
856.2746582573
 30
0.0
 11
-176.3126384598
 21
856.2746582573
 31
0.0
  0
LINE
  5
91
330
1F
100
AcDbEntity
  8
0
  6
Continuous
 62
     7
370
    25
100
AcDbLine
 10
-451.3527631303
 20
455.1938600909
 30
0.0
 11
-501.3527631303
 21
455.1938600909
 31
0.0
  0
LINE
  5
92
330
1F
100
AcDbEntity
  8
0
  6
Continuous
 62
     7
370
    25
100
AcDbLine
 10
-501.3527631303
 20
-234.8061399091
 30
0.0
 11
-451.3527631303
 21
-234.8061399091
 31
0.0
  0
LINE
  5
93
330
1F
100
AcDbEntity
  8
0
  6
Continuous
 62
     7
370
    25
100
AcDbLine
 10
-501.3527631303
 20
432.6938600909
 30
0.0
 11
-526.3527631303
 21
425.1938600909
 31
0.0
  0
LINE
  5
94
330
1F
100
AcDbEntity
  8
0
  6
Continuous
 62
     7
370
    25
100
AcDbLine
 10
-526.3527631303
 20
-204.8061399091
 30
0.0
 11
-501.3527631303
 21
-212.3061399091
 31
0.0
  0
LINE
  5
95
330
1F
100
AcDbEntity
  8
0
  6
Continuous
 62
     7
370
    25
100
AcDbLine
 10
-526.3527631303
 20
425.1938600909
 30
0.0
 11
-571.3527631303
 21
425.1938600909
 31
0.0
  0
LINE
  5
96
330
1F
100
AcDbEntity
  8
0
  6
Continuous
 62
     7
370
    25
100
AcDbLine
 10
-571.3527631303
 20
-204.8061399091
 30
0.0
 11
-526.3527631303
 21
-204.8061399091
 31
0.0
  0
LINE
  5
97
330
1F
100
AcDbEntity
  8
0
  6
Continuous
 62
     7
370
    25
100
AcDbLine
 10
-451.3527631303
 20
455.1938600909
 30
0.0
 11
-451.3527631303
 21
-234.8061399091
 31
0.0
  0
LINE
  5
98
330
1F
100
AcDbEntity
  8
0
  6
Continuous
 62
     7
370
    25
100
AcDbLine
 10
-501.3527631303
 20
455.1938600909
 30
0.0
 11
-501.3527631303
 21
-234.8061399091
 31
0.0
  0
LINE
  5
99
330
1F
100
AcDbEntity
  8
0
  6
Continuous
 62
     7
370
    25
100
AcDbLine
 10
-526.3527631303
 20
425.1938600909
 30
0.0
 11
-526.3527631303
 21
-204.8061399091
 31
0.0
  0
LINE
  5
9A
330
1F
100
AcDbEntity
  8
0
  6
Continuous
 62
     7
370
    25
100
AcDbLine
 10
-571.3527631303
 20
425.1938600909
 30
0.0
 11
-571.3527631303
 21
-204.8061399091
 31
0.0
  0
LINE
  5
9B
330
1F
100
AcDbEntity
  8
0
  6
Continuous
 62
     7
370
    25
100
AcDbLine
 10
-206.3126384598
 20
-548.5785958486
 30
0.0
 11
-206.3126384598
 21
-598.5785958486
 31
0.0
  0
LINE
  5
9C
330
1F
100
AcDbEntity
  8
0
  6
Continuous
 62
     7
370
    25
100
AcDbLine
 10
483.6873615402
 20
-598.5785958486
 30
0.0
 11
483.6873615402
 21
-548.5785958486
 31
0.0
  0
LINE
  5
9D
330
1F
100
AcDbEntity
  8
0
  6
Continuous
 62
     7
370
    25
100
AcDbLine
 10
-183.8126384598
 20
-598.5785958486
 30
0.0
 11
-176.3126384598
 21
-623.5785958486
 31
0.0
  0
LINE
  5
9E
330
1F
100
AcDbEntity
  8
0
  6
Continuous
 62
     7
370
    25
100
AcDbLine
 10
453.6873615402
 20
-623.5785958486
 30
0.0
 11
461.1873615402
 21
-598.5785958486
 31
0.0
  0
LINE
  5
9F
330
1F
100
AcDbEntity
  8
0
  6
Continuous
 62
     7
370
    25
100
AcDbLine
 10
-176.3126384598
 20
-623.5785958486
 30
0.0
 11
-176.3126384598
 21
-668.5785958486
 31
0.0
  0
LINE
  5
A0
330
1F
100
AcDbEntity
  8
0
  6
Continuous
 62
     7
370
    25
100
AcDbLine
 10
453.6873615402
 20
-668.5785958486
 30
0.0
 11
453.6873615402
 21
-623.5785958486
 31
0.0
  0
LINE
  5
A1
330
1F
100
AcDbEntity
  8
0
  6
Continuous
 62
     7
370
    25
100
AcDbLine
 10
-206.3126384598
 20
-548.5785958486
 30
0.0
 11
483.6873615402
 21
-548.5785958486
 31
0.0
  0
LINE
  5
A2
330
1F
100
AcDbEntity
  8
0
  6
Continuous
 62
     7
370
    25
100
AcDbLine
 10
-206.3126384598
 20
-598.5785958486
 30
0.0
 11
483.6873615402
 21
-598.5785958486
 31
0.0
  0
LINE
  5
A3
330
1F
100
AcDbEntity
  8
0
  6
Continuous
 62
     7
370
    25
100
AcDbLine
 10
-176.3126384598
 20
-623.5785958486
 30
0.0
 11
453.6873615402
 21
-623.5785958486
 31
0.0
  0
LINE
  5
A4
330
1F
100
AcDbEntity
  8
0
  6
Continuous
 62
     7
370
    25
100
AcDbLine
 10
-176.3126384598
 20
-668.5785958486
 30
0.0
 11
453.6873615402
 21
-668.5785958486
 31
0.0
  0
LINE
  5
A5
330
1F
100
AcDbEntity
  8
0
  6
Continuous
 62
     7
370
    25
100
AcDbLine
 10
778.2164604227
 20
-234.8061399091
 30
0.0
 11
828.2164604227
 21
-234.8061399091
 31
0.0
  0
LINE
  5
A6
330
1F
100
AcDbEntity
  8
0
  6
Continuous
 62
     7
370
    25
100
AcDbLine
 10
828.2164604227
 20
455.1938600909
 30
0.0
 11
778.2164604227
 21
455.1938600909
 31
0.0
  0
LINE
  5
A7
330
1F
100
AcDbEntity
  8
0
  6
Continuous
 62
     7
370
    25
100
AcDbLine
 10
828.2164604227
 20
-212.3061399091
 30
0.0
 11
853.2164604227
 21
-204.8061399091
 31
0.0
  0
LINE
  5
A8
330
1F
100
AcDbEntity
  8
0
  6
Continuous
 62
     7
370
    25
100
AcDbLine
 10
853.2164604227
 20
425.1938600909
 30
0.0
 11
828.2164604227
 21
432.6938600909
 31
0.0
  0
LINE
  5
A9
330
1F
100
AcDbEntity
  8
0
  6
Continuous
 62
     7
370
    25
100
AcDbLine
 10
853.2164604227
 20
-204.8061399091
 30
0.0
 11
898.2164604227
 21
-204.8061399091
 31
0.0
  0
LINE
  5
AA
330
1F
100
AcDbEntity
  8
0
  6
Continuous
 62
     7
370
    25
100
AcDbLine
 10
898.2164604227
 20
425.1938600909
 30
0.0
 11
853.2164604227
 21
425.1938600909
 31
0.0
  0
LINE
  5
AB
330
1F
100
AcDbEntity
  8
0
  6
Continuous
 62
     7
370
    25
100
AcDbLine
 10
778.2164604227
 20
110.1938600909
 30
0.0
 11
778.2164604227
 21
455.1938600909
 31
0.0
  0
LINE
  5
AC
330
1F
100
AcDbEntity
  8
0
  6
Continuous
 62
     7
370
    25
100
AcDbLine
 10
778.2164604227
 20
-234.8061399091
 30
0.0
 11
778.2164604227
 21
110.1938600909
 31
0.0
  0
LINE
  5
AD
330
1F
100
AcDbEntity
  8
0
  6
Continuous
 62
     7
370
    25
100
AcDbLine
 10
828.2164604227
 20
110.1938600909
 30
0.0
 11
828.2164604227
 21
455.1938600909
 31
0.0
  0
LINE
  5
AE
330
1F
100
AcDbEntity
  8
0
  6
Continuous
 62
     7
370
    25
100
AcDbLine
 10
828.2164604227
 20
-234.8061399091
 30
0.0
 11
828.2164604227
 21
110.1938600909
 31
0.0
  0
LINE
  5
AF
330
1F
100
AcDbEntity
  8
0
  6
Continuous
 62
     7
370
    25
100
AcDbLine
 10
853.2164604227
 20
110.1938600909
 30
0.0
 11
853.2164604227
 21
425.1938600909
 31
0.0
  0
LINE
  5
B0
330
1F
100
AcDbEntity
  8
0
  6
Continuous
 62
     7
370
    25
100
AcDbLine
 10
853.2164604227
 20
-204.8061399091
 30
0.0
 11
853.2164604227
 21
110.1938600909
 31
0.0
  0
LINE
  5
B1
330
1F
100
AcDbEntity
  8
0
  6
Continuous
 62
     7
370
    25
100
AcDbLine
 10
898.2164604227
 20
110.1938600909
 30
0.0
 11
898.2164604227
 21
425.1938600909
 31
0.0
  0
LINE
  5
B2
330
1F
100
AcDbEntity
  8
0
  6
Continuous
 62
     7
370
    25
100
AcDbLine
 10
898.2164604227
 20
-204.8061399091
 30
0.0
 11
898.2164604227
 21
110.1938600909
 31
0.0
  0
LINE
  5
B3
330
1F
100
AcDbEntity
  8
0
  6
Continuous
 62
     7
370
    25
100
AcDbLine
 10
1028.2235935559
 20
-371.8057306136
 30
0.0
 11
996.4037884025
 21
-353.4365480976
 31
0.0
  0
LINE
  5
B4
330
1F
100
AcDbEntity
  8
0
  6
Continuous
 62
     7
370
    25
100
AcDbLine
 10
681.4293876221
 20
-899.0473313975
 30
0.0
 11
713.2491927755
 21
-917.4165139135
 31
0.0
  0
LINE
  5
B5
330
1F
100
AcDbEntity
  8
0
  6
Continuous
 62
     7
370
    25
100
AcDbLine
 10
1096.2553831344
 20
-376.4395689356
 30
0.0
 11
1060.9000440751
 21
-356.02936614
 31
0.0
  0
LINE
  5
B6
330
1F
100
AcDbEntity
  8
0
  6
Continuous
 62
     7
370
    25
100
AcDbLine
 10
715.9280813157
 20
-953.6030811827
 30
0.0
 11
751.283420375
 21
-974.0132839782
 31
0.0
  0
LINE
  5
B7
330
1F
100
AcDbEntity
  8
0
  6
Continuous
 62
     7
370
    25
100
AcDbLine
 10
1011.7689167469
 20
-362.1230320401
 30
0.0
 11
1011.3231304328
 21
-362.0493009241
 31
0.0
  0
LINE
  5
B8
330
1F
100
AcDbEntity
  8
0
  6
Continuous
 62
     7
370
    25
100
AcDbLine
 10
696.3487296524
 20
-907.6600842239
 30
0.0
 11
696.6355085957
 21
-908.0092540293
 31
0.0
  0
LWPOLYLINE
  5
B9
330
1F
100
AcDbEntity
  8
0
  6
Continuous
 62
     7
370
    25
100
AcDbPolyline
 90
      189
 70
   128
 43
0.0
 10
616.1779519386
 20
-754.8262173596
 10
616.3023372716
 20
-746.159733112
 10
616.6753543482
 20
-737.3593159739
 10
617.2965865559
 20
-728.4347948897
 10
618.1653400573
 20
-719.3961374118
 10
619.2806445657
 20
-710.2534385686
 10
620.641254428
 20
-701.0169095894
 10
622.2456500164
 20
-691.6968664997
 10
624.0920394255
 20
-682.3037185998
 10
626.1783604738
 20
-672.8479568385
 10
628.5022830065
 20
-663.3401420966
 10
631.0612114984
 20
-653.7908933912
 10
633.8522879526
 20
-644.210876016
 10
636.8723950922
 20
-634.6107896293
 10
640.1181598428
 20
-625.001356304
 10
643.5859570986
 20
-615.3933085523
 10
647.2719137722
 20
-605.7973773389
 10
651.1719131198
 20
-596.2242800958
 10
655.2815993393
 20
-586.6847087524
 10
659.5963824349
 20
-577.1893177941
 10
664.1114433438
 20
-567.7487123622
 10
668.8217393186
 20
-558.3734364098
 10
673.7220095591
 20
-549.073960925
 10
678.8067810878
 20
-539.8606722367
 10
684.0703748633
 20
-530.743860414
 10
689.506912122
 20
-521.7337077737
 10
695.1103209449
 20
-512.8402775078
 10
700.8743430385
 20
-504.0735024445
 10
706.7925407247
 20
-495.4431739539
 10
712.8583041312
 20
-486.958931013
 10
719.0648585734
 20
-478.6302494399
 10
725.4052721209
 20
-470.4664313101
 10
731.8724633401
 20
-462.476594568
 10
738.4592092027
 20
-454.6696628429
 10
745.158153153
 20
-447.0543554824
 10
751.9618133246
 20
-439.6391778142
 10
758.8625908962
 20
-432.4324116466
 10
765.8527785789
 20
-425.4421060188
 10
772.9245692239
 20
-418.6760682112
 10
780.0700645426
 20
-412.1418550257
 10
787.2812839273
 20
-405.8467643455
 10
794.5501733653
 20
-399.7978269846
 10
801.8686144335
 20
-394.0017988349
 10
809.2284333659
 20
-388.4651533212
 10
816.6214101831
 20
-383.1940741708
 10
824.0392878722
 20
-378.1944485072
 10
831.4737816092
 20
-373.4718602751
 10
838.9165880123
 20
-369.0315840035
 10
846.3593944155
 20
-364.8785789152
 10
853.7938881525
 20
-361.0174833874
 10
861.2117658415
 20
-357.4526097717
 10
868.6047426587
 20
-354.1879395775
 10
875.9645615912
 20
-351.2271190254
 10
883.2830026594
 20
-348.5734549746
 10
890.5518920973
 20
-346.2299112294
 10
897.7631114821
 20
-344.1991052296
 10
904.9086068008
 20
-342.4833051267
 10
911.9803974458
 20
-341.0844272506
 10
918.9705851285
 20
-340.0040339696
 10
925.8713627001
 20
-339.2433319454
 10
932.6750228716
 20
-338.8031707851
 10
939.373966822
 20
-338.6840420927
 10
945.9607126845
 20
-338.8860789196
 10
952.4279039037
 20
-339.4090556166
 10
958.7683174513
 20
-340.2523880852
 10
964.9748718934
 20
-341.4151344307
 10
971.0406352999
 20
-342.8959960136
 10
976.9588329862
 20
-344.6933189002
 10
982.7228550798
 20
-346.80509571
 10
988.3262639026
 20
-349.2289678574
 10
993.7628011614
 20
-351.9622281862
 10
999.0263949368
 20
-355.0018239929
 10
1004.1111664656
 20
-358.3443604366
 10
1009.011436706
 20
-361.98610433
 10
1013.7217326808
 20
-365.9229883093
 10
1018.2367935898
 20
-370.150615377
 10
1022.5515766854
 20
-374.6642638126
 10
1026.6612629048
 20
-379.4588924459
 10
1030.5612622524
 20
-384.529146288
 10
1034.2472189261
 20
-389.8693625115
 10
1037.7150161819
 20
-395.4735767756
 10
1040.9607809324
 20
-401.3355298873
 10
1043.9808880721
 20
-407.4486747922
 10
1046.7719645262
 20
-413.8061838865
 10
1049.3308930181
 20
-420.4009566429
 10
1051.6548155508
 20
-427.2256275408
 10
1053.7411365991
 20
-434.2725742928
 10
1055.5875260083
 20
-441.5339263575
 10
1057.1919215967
 20
-449.0015737301
 10
1058.552531459
 20
-456.6671760005
 10
1059.6678359673
 20
-464.5221716678
 10
1060.5365894688
 20
-472.5577877033
 10
1061.1578216764
 20
-480.7650493479
 10
1061.530838753
 20
-489.1347901365
 10
1061.6552240861
 20
-497.6576621355
 10
1061.530838753
 20
-506.3241463831
 10
1061.1578216764
 20
-515.1245635212
 10
1060.5365894688
 20
-524.0490846054
 10
1059.6678359673
 20
-533.0877420833
 10
1058.552531459
 20
-542.2304409265
 10
1057.1919215967
 20
-551.4669699057
 10
1055.5875260083
 20
-560.7870129954
 10
1053.7411365991
 20
-570.1801608953
 10
1051.6548155508
 20
-579.6359226566
 10
1049.3308930181
 20
-589.1437373985
 10
1046.7719645262
 20
-598.6929861039
 10
1043.9808880721
 20
-608.2730034791
 10
1040.9607809324
 20
-617.8730898658
 10
1037.7150161819
 20
-627.4825231911
 10
1034.2472189261
 20
-637.0905709428
 10
1030.5612622524
 20
-646.6865021562
 10
1026.6612629048
 20
-656.2595993993
 10
1022.5515766854
 20
-665.7991707427
 10
1018.2367935898
 20
-675.294561701
 10
1013.7217326808
 20
-684.7351671329
 10
1009.011436706
 20
-694.1104430853
 10
1004.1111664656
 20
-703.4099185701
 10
999.0263949368
 20
-712.6232072584
 10
993.7628011614
 20
-721.7400190811
 10
988.3262639026
 20
-730.7501717214
 10
982.7228550798
 20
-739.6436019873
 10
976.9588329862
 20
-748.4103770506
 10
971.0406352999
 20
-757.0407055412
 10
964.9748718934
 20
-765.524948482
 10
958.7683174513
 20
-773.8536300552
 10
952.4279039037
 20
-782.017448185
 10
945.9607126845
 20
-790.007284927
 10
939.373966822
 20
-797.8142166522
 10
932.6750228716
 20
-805.4295240127
 10
925.8713627001
 20
-812.8447016809
 10
918.9705851285
 20
-820.0514678485
 10
911.9803974458
 20
-827.0417734763
 10
904.9086068008
 20
-833.8078112839
 10
897.7631114821
 20
-840.3420244694
 10
890.5518920973
 20
-846.6371151496
 10
883.2830026594
 20
-852.6860525105
 10
875.9645615912
 20
-858.4820806602
 10
868.6047426587
 20
-864.0187261739
 10
861.2117658415
 20
-869.2898053243
 10
853.7938881525
 20
-874.2894309879
 10
846.3593944155
 20
-879.01201922
 10
838.9165880123
 20
-883.4522954916
 10
831.4737816092
 20
-887.6053005799
 10
824.0392878722
 20
-891.4663961077
 10
816.6214101831
 20
-895.0312697234
 10
809.2284333659
 20
-898.2959399176
 10
801.8686144335
 20
-901.2567604697
 10
794.5501733653
 20
-903.9104245205
 10
787.2812839273
 20
-906.2539682657
 10
780.0700645426
 20
-908.2847742655
 10
772.9245692239
 20
-910.0005743684
 10
765.8527785789
 20
-911.3994522445
 10
758.8625908962
 20
-912.4798455254
 10
751.9618133246
 20
-913.2405475497
 10
745.158153153
 20
-913.68070871
 10
738.4592092027
 20
-913.7998374024
 10
731.8724633401
 20
-913.5978005755
 10
725.4052721209
 20
-913.0748238785
 10
719.0648585734
 20
-912.2314914099
 10
712.8583041312
 20
-911.0687450644
 10
706.7925407247
 20
-909.5878834815
 10
700.8743430385
 20
-907.7905605949
 10
695.1103209449
 20
-905.6787837851
 10
689.506912122
 20
-903.2549116377
 10
684.0703748633
 20
-900.5216513089
 10
678.8067810878
 20
-897.4820555022
 10
673.7220095591
 20
-894.1395190585
 10
668.8217393186
 20
-890.4977751651
 10
664.1114433438
 20
-886.5608911858
 10
659.5963824349
 20
-882.333264118
 10
655.2815993393
 20
-877.8196156825
 10
651.1719131198
 20
-873.0249870492
 10
647.2719137722
 20
-867.9547332071
 10
643.5859570986
 20
-862.6145169836
 10
640.1181598428
 20
-857.0103027195
 10
636.8723950922
 20
-851.1483496078
 10
633.8522879526
 20
-845.0352047029
 10
631.0612114984
 20
-838.6776956086
 10
628.5022830065
 20
-832.0829228522
 10
626.1783604738
 20
-825.2582519542
 10
624.0920394255
 20
-818.2113052023
 10
622.2456500164
 20
-810.9499531376
 10
620.641254428
 20
-803.482305765
 10
619.2806445657
 20
-795.8167034946
 10
618.1653400573
 20
-787.9617078272
 10
617.2965865559
 20
-779.9260917918
 10
616.6753543482
 20
-771.7188301472
 10
616.3023372716
 20
-763.3490893586
 10
616.1779519386
 20
-754.8262173596
  0
LWPOLYLINE
  5
BA
330
1F
100
AcDbEntity
  8
0
  6
Continuous
 62
     7
370
    25
100
AcDbPolyline
 90
      177
 70
   128
 43
0.0
 10
642.6237455549
 20
-739.5593856685
 10
642.7488183179
 20
-731.3967396625
 10
643.1238772204
 20
-723.1000897754
 10
643.7484443066
 20
-714.680008832
 10
644.6217236603
 20
-706.1472269516
 10
645.742602419
 20
-697.5126178733
 10
647.1096521925
 20
-688.7871851001
 10
648.7211308826
 20
-679.9820478756
 10
650.5749849036
 20
-671.1084270149
 10
652.6688517991
 20
-662.1776306052
 10
655.0000632525
 20
-653.201039595
 10
657.5656484875
 20
-644.1900932913
 10
660.362338054
 20
-635.1562747818
 10
663.3865679943
 20
-626.1110963011
 10
666.634484385
 20
-617.0660845606
 10
670.1019482481
 20
-608.0327660591
 10
673.7845408256
 20
-599.0226523942
 10
677.6775692104
 20
-590.0472255923
 10
681.7760723269
 20
-581.1179234769
 10
686.0748272532
 20
-572.2461250923
 10
690.5683558764
 20
-563.4431362032
 10
695.2509318743
 20
-554.7201748868
 10
700.1165880123
 20
-546.0883572375
 10
705.159123748
 20
-537.5586832008
 10
710.3721131325
 20
-529.1420225555
 10
715.7489129996
 20
-520.8491010621
 10
721.2826714316
 20
-512.6904867942
 10
726.9663364906
 20
-504.6765766711
 10
732.7926652055
 20
-496.8175832088
 10
738.754232802
 20
-489.1235215052
 10
744.8434421642
 20
-481.6041964776
 10
751.0525335163
 20
-474.2691903682
 10
757.3735943107
 20
-467.1278505322
 10
763.798569312
 20
-460.1892775268
 10
770.3192708618
 20
-453.4623135133
 10
776.9273893125
 20
-446.9555309894
 10
783.6145036171
 20
-440.6772218649
 10
790.3720920604
 20
-434.6353868949
 10
797.1915431182
 20
-428.8377254837
 10
804.0641664322
 20
-423.2916258736
 10
810.9812038838
 20
-418.0041557293
 10
817.9338407555
 20
-412.9820531314
 10
824.9132169636
 20
-408.2317179898
 10
831.9104383491
 20
-403.7592038879
 10
838.9165880123
 20
-399.5702103681
 10
845.9227376755
 20
-395.6700756687
 10
852.9199590611
 20
-392.0637699214
 10
859.8993352692
 20
-388.7558888171
 10
866.8519721409
 20
-385.7506477497
 10
873.7690095925
 20
-383.0518764443
 10
880.6416329065
 20
-380.6630140765
 10
887.4610839643
 20
-378.58710489
 10
894.2186724075
 20
-376.8267943168
 10
900.9057867122
 20
-375.3843256065
 10
907.5139051629
 20
-374.2615369672
 10
914.0346067126
 20
-373.459859223
 10
920.4595817139
 20
-372.980313991
 10
926.7806425084
 20
-372.823512379
 10
932.9897338604
 20
-372.989654207
 10
939.0789432227
 20
-373.4785277522
 10
945.0405108192
 20
-374.2895100194
 10
950.8668395341
 20
-375.4215675344
 10
956.5505045931
 20
-376.8732576611
 10
962.084263025
 20
-378.6427304401
 10
967.4610628922
 20
-380.7277309462
 10
972.6740522767
 20
-383.1256021617
 10
977.7165880123
 20
-385.8332883626
 10
982.5822441504
 20
-388.8473390124
 10
987.2648201483
 20
-392.1639131598
 10
991.7583487715
 20
-395.7787843327
 10
996.0571036977
 20
-399.6873459249
 10
1000.1556068143
 20
-403.8846170661
 10
1004.0486351991
 20
-408.3652489693
 10
1007.7312277765
 20
-413.1235317471
 10
1011.1986916396
 20
-418.1534016881
 10
1014.4466080303
 20
-423.4484489841
 10
1017.4708379706
 20
-429.0019258986
 10
1020.2675275372
 20
-434.8067553656
 10
1022.8331127722
 20
-440.8555400083
 10
1025.1643242256
 20
-447.1405715659
 10
1027.258191121
 20
-453.6538407167
 10
1029.112045142
 20
-460.3870472847
 10
1030.7235238321
 20
-467.331610817
 10
1032.0905736056
 20
-474.4786815181
 10
1033.2114523644
 20
-481.819151528
 10
1034.0847317181
 20
-489.3436665283
 10
1034.7092988043
 20
-497.0426376631
 10
1035.0843577068
 20
-504.9062537588
 10
1035.2094304697
 20
-512.9244938266
 10
1035.0843577068
 20
-521.0871398326
 10
1034.7092988043
 20
-529.3837897197
 10
1034.0847317181
 20
-537.8038706631
 10
1033.2114523644
 20
-546.3366525435
 10
1032.0905736056
 20
-554.9712616218
 10
1030.7235238321
 20
-563.696694395
 10
1029.112045142
 20
-572.5018316195
 10
1027.258191121
 20
-581.3754524802
 10
1025.1643242256
 20
-590.3062488899
 10
1022.8331127722
 20
-599.2828399001
 10
1020.2675275372
 20
-608.2937862038
 10
1017.4708379706
 20
-617.3276047133
 10
1014.4466080303
 20
-626.372783194
 10
1011.1986916396
 20
-635.4177949345
 10
1007.7312277765
 20
-644.451113436
 10
1004.0486351991
 20
-653.4612271009
 10
1000.1556068143
 20
-662.4366539028
 10
996.0571036977
 20
-671.3659560182
 10
991.7583487715
 20
-680.2377544028
 10
987.2648201483
 20
-689.0407432919
 10
982.5822441504
 20
-697.7637046083
 10
977.7165880123
 20
-706.3955222576
 10
972.6740522767
 20
-714.9251962943
 10
967.4610628922
 20
-723.3418569396
 10
962.084263025
 20
-731.634778433
 10
956.5505045931
 20
-739.7933927009
 10
950.8668395341
 20
-747.807302824
 10
945.0405108192
 20
-755.6662962863
 10
939.0789432227
 20
-763.3603579899
 10
932.9897338604
 20
-770.8796830175
 10
926.7806425084
 20
-778.2146891269
 10
920.4595817139
 20
-785.3560289629
 10
914.0346067126
 20
-792.2946019683
 10
907.5139051629
 20
-799.0215659818
 10
900.9057867121
 20
-805.5283485057
 10
894.2186724075
 20
-811.8066576301
 10
887.4610839643
 20
-817.8484926002
 10
880.6416329065
 20
-823.6461540114
 10
873.7690095925
 20
-829.1922536215
 10
866.8519721409
 20
-834.4797237658
 10
859.8993352692
 20
-839.5018263637
 10
852.9199590611
 20
-844.2521615053
 10
845.9227376755
 20
-848.7246756072
 10
838.9165880123
 20
-852.913669127
 10
831.9104383491
 20
-856.8138038264
 10
824.9132169636
 20
-860.4201095737
 10
817.9338407555
 20
-863.727990678
 10
810.9812038838
 20
-866.7332317454
 10
804.0641664322
 20
-869.4320030508
 10
797.1915431182
 20
-871.8208654186
 10
790.3720920604
 20
-873.8967746051
 10
783.6145036171
 20
-875.6570851783
 10
776.9273893125
 20
-877.0995538886
 10
770.3192708618
 20
-878.2223425279
 10
763.798569312
 20
-879.0240202721
 10
757.3735943107
 20
-879.5035655041
 10
751.0525335163
 20
-879.6603671161
 10
744.8434421642
 20
-879.4942252881
 10
738.754232802
 20
-879.0053517429
 10
732.7926652055
 20
-878.1943694757
 10
726.9663364906
 20
-877.0623119607
 10
721.2826714316
 20
-875.610621834
 10
715.7489129996
 20
-873.841149055
 10
710.3721131325
 20
-871.7561485489
 10
705.159123748
 20
-869.3582773334
 10
700.1165880123
 20
-866.6505911325
 10
695.2509318743
 20
-863.6365404827
 10
690.5683558764
 20
-860.3199663353
 10
686.0748272532
 20
-856.7050951624
 10
681.7760723269
 20
-852.7965335701
 10
677.6775692104
 20
-848.599262429
 10
673.7845408256
 20
-844.1186305258
 10
670.1019482481
 20
-839.360347748
 10
666.634484385
 20
-834.330477807
 10
663.3865679943
 20
-829.035430511
 10
660.362338054
 20
-823.4819535965
 10
657.5656484875
 20
-817.6771241295
 10
655.0000632525
 20
-811.6283394868
 10
652.6688517991
 20
-805.3433079292
 10
650.5749849037
 20
-798.8300387784
 10
648.7211308826
 20
-792.0968322104
 10
647.1096521925
 20
-785.1522686781
 10
645.742602419
 20
-778.005197977
 10
644.6217236603
 20
-770.6647279671
 10
643.7484443066
 20
-763.1402129668
 10
643.1238772204
 20
-755.441241832
 10
642.7488183179
 20
-747.5776257363
 10
642.6237455549
 20
-739.5593856685
  0
LWPOLYLINE
  5
BB
330
1F
100
AcDbEntity
  8
0
  6
Continuous
 62
     7
370
    25
100
AcDbPolyline
 90
       96
 70
   128
 43
0.0
 10
1028.2235935559
 20
-371.8057306136
 10
1030.8462000902
 20
-373.3710065089
 10
1035.930971619
 20
-376.7135429526
 10
1040.8312418594
 20
-380.355286846
 10
1045.5415378342
 20
-384.2921708253
 10
1050.0565987432
 20
-388.5197978931
 10
1054.3713818388
 20
-393.0334463286
 10
1058.4810680582
 20
-397.8280749619
 10
1062.3810674058
 20
-402.898328804
 10
1066.0670240795
 20
-408.2385450275
 10
1069.5348213353
 20
-413.8427592916
 10
1072.7805860858
 20
-419.7047124033
 10
1075.8006932255
 20
-425.8178573082
 10
1078.5917696796
 20
-432.1753664025
 10
1081.1506981715
 20
-438.7701391589
 10
1083.4746207042
 20
-445.5948100569
 10
1085.5609417525
 20
-452.6417568088
 10
1087.4073311617
 20
-459.9031088735
 10
1089.0117267501
 20
-467.3707562462
 10
1090.3723366124
 20
-475.0363585165
 10
1091.4876411207
 20
-482.8913541839
 10
1092.3563946222
 20
-490.9269702193
 10
1092.9776268298
 20
-499.1342318639
 10
1093.3506439064
 20
-507.5039726525
 10
1093.4750292395
 20
-516.0268446515
 10
1093.3506439064
 20
-524.6933288991
 10
1092.9776268298
 20
-533.4937460372
 10
1092.3563946222
 20
-542.4182671214
 10
1091.4876411207
 20
-551.4569245993
 10
1090.3723366124
 20
-560.5996234425
 10
1089.0117267501
 20
-569.8361524217
 10
1087.4073311617
 20
-579.1561955114
 10
1085.5609417525
 20
-588.5493434113
 10
1083.4746207042
 20
-598.0051051726
 10
1081.1506981715
 20
-607.5129199145
 10
1078.5917696796
 20
-617.0621686199
 10
1075.8006932255
 20
-626.6421859951
 10
1072.7805860858
 20
-636.2422723818
 10
1069.5348213353
 20
-645.8517057071
 10
1066.0670240795
 20
-655.4597534588
 10
1062.3810674058
 20
-665.0556846722
 10
1058.4810680582
 20
-674.6287819154
 10
1054.3713818388
 20
-684.1683532587
 10
1050.0565987432
 20
-693.663744217
 10
1045.5415378342
 20
-703.1043496489
 10
1040.8312418594
 20
-712.4796256013
 10
1035.930971619
 20
-721.7791010861
 10
1030.8462000902
 20
-730.9923897744
 10
1025.5826063148
 20
-740.1092015971
 10
1020.146069056
 20
-749.1193542374
 10
1014.5426602332
 20
-758.0127845033
 10
1008.7786381396
 20
-766.7795595666
 10
1002.8604404533
 20
-775.4098880572
 10
996.7946770468
 20
-783.8941309981
 10
990.5881226047
 20
-792.2228125712
 10
984.2477090571
 20
-800.386630701
 10
977.7805178379
 20
-808.3764674431
 10
971.1937719754
 20
-816.1833991682
 10
964.494828025
 20
-823.7987065287
 10
957.6911678535
 20
-831.2138841969
 10
950.7903902819
 20
-838.4206503645
 10
943.8002025992
 20
-845.4109559923
 10
936.7284119541
 20
-852.1769937999
 10
929.5829166355
 20
-858.7112069854
 10
922.3716972507
 20
-865.0062976656
 10
915.1028078128
 20
-871.0552350265
 10
907.7843667446
 20
-876.8512631762
 10
900.4245478121
 20
-882.3879086899
 10
893.0315709949
 20
-887.6589878403
 10
885.6136933059
 20
-892.6586135039
 10
878.1791995688
 20
-897.381201736
 10
870.7363931657
 20
-901.8214780076
 10
863.2935867626
 20
-905.9744830959
 10
855.8590930256
 20
-909.8355786237
 10
848.4412153365
 20
-913.4004522394
 10
841.0482385193
 20
-916.6651224336
 10
833.6884195868
 20
-919.6259429857
 10
826.3699785187
 20
-922.2796070366
 10
819.1010890807
 20
-924.6231507817
 10
811.889869696
 20
-926.6539567815
 10
804.7443743773
 20
-928.3697568844
 10
797.6725837322
 20
-929.7686347605
 10
790.6823960496
 20
-930.8490280415
 10
783.781618478
 20
-931.6097300657
 10
776.9779583064
 20
-932.049891226
 10
770.2790143561
 20
-932.1690199184
 10
763.6922684935
 20
-931.9669830915
 10
757.2250772743
 20
-931.4440063945
 10
750.8846637268
 20
-930.6006739259
 10
744.6781092846
 20
-929.4379275804
 10
738.6123458781
 20
-927.9570659975
 10
732.6941481919
 20
-926.1597431109
 10
726.9301260983
 20
-924.0479663011
 10
721.3267172754
 20
-921.6240941537
 10
715.8901800167
 20
-918.890833825
 10
713.2491927755
 20
-917.4165139135
  0
LWPOLYLINE
  5
BC
330
1F
100
AcDbEntity
  8
0
  6
Continuous
 62
     7
370
    25
100
AcDbPolyline
 90
      101
 70
   128
 43
0.0
 10
1096.2553831344
 20
-376.4395689356
 10
1096.9557507747
 20
-376.8471788181
 10
1102.3465382518
 20
-380.2134890736
 10
1107.5556837086
 20
-383.8798755146
 10
1112.5778885963
 20
-387.8426088291
 10
1117.4080445149
 20
-392.0976582722
 10
1122.0412384094
 20
-396.6406957658
 10
1126.4727575674
 20
-401.4671003013
 10
1130.6980944125
 20
-406.5719626396
 10
1134.7129510891
 20
-411.9500903044
 10
1138.5132438345
 20
-417.5960128645
 10
1142.0951071322
 20
-423.5039874974
 10
1145.4548976441
 20
-429.6680048312
 10
1148.5891979163
 20
-436.0817950566
 10
1151.4948198552
 20
-442.7388343049
 10
1154.1688079702
 20
-449.6323512834
 10
1156.60844238
 20
-456.755334163
 10
1158.8112415794
 20
-464.1005377106
 10
1160.7749649628
 20
-471.6604906583
 10
1162.497615104
 20
-479.4275033032
 10
1163.9774397873
 20
-487.3936753291
 10
1165.21293379
 20
-495.550903842
 10
1166.2028404137
 20
-503.8908916125
 10
1166.9461527621
 20
-512.4051555154
 10
1167.4421147655
 20
-521.0850351582
 10
1167.69022195
 20
-529.9217016901
 10
1167.69022195
 20
-538.9061667827
 10
1167.4421147655
 20
-548.0292917723
 10
1166.9461527621
 20
-557.2817969556
 10
1166.2028404137
 20
-566.6542710284
 10
1165.21293379
 20
-576.1371806589
 10
1163.9774397873
 20
-585.720880184
 10
1162.497615104
 20
-595.3956214213
 10
1160.7749649628
 20
-605.1515635836
 10
1158.8112415794
 20
-614.9787832898
 10
1156.60844238
 20
-624.8672846573
 10
1154.1688079702
 20
-634.8070094705
 10
1151.4948198552
 20
-644.787847411
 10
1148.5891979163
 20
-654.7996463419
 10
1145.4548976441
 20
-664.8322226336
 10
1142.0951071322
 20
-674.8753715228
 10
1138.5132438345
 20
-684.9188774919
 10
1134.7129510891
 20
-694.9525246605
 10
1130.6980944125
 20
-704.9661071758
 10
1126.4727575674
 20
-714.9494395941
 10
1122.0412384094
 20
-724.8923672412
 10
1117.4080445149
 20
-734.7847765409
 10
1112.5778885963
 20
-744.6166053025
 10
1107.5556837086
 20
-754.3778529555
 10
1102.3465382518
 20
-764.0585907219
 10
1096.9557507747
 20
-773.6489717153
 10
1091.3888045861
 20
-783.1392409571
 10
1085.6513621763
 20
-792.5197452983
 10
1079.7492594583
 20
-801.7809432388
 10
1073.6884998316
 20
-810.9134146328
 10
1067.4752480754
 20
-819.9078702699
 10
1061.1158240781
 20
-828.7551613246
 10
1054.6166964093
 20
-837.4462886614
 10
1047.9844757399
 20
-845.972411989
 10
1041.2259081181
 20
-854.3248588519
 10
1034.3478681074
 20
-862.4951334518
 10
1027.3573517943
 20
-870.4749252893
 10
1020.2614696718
 20
-878.2561176171
 10
1013.0674394074
 20
-885.8307956958
 10
1005.7825785009
 20
-893.1912548446
 10
998.414296842
 20
-900.3300082782
 10
990.9700891726
 20
-907.2397947223
 10
983.4575274638
 20
-913.9135857991
 10
975.884253214
 20
-920.3445931766
 10
968.2579696759
 20
-926.5262754733
 10
960.5864340215
 20
-932.452344912
 10
952.8774494515
 20
-938.1167737152
 10
945.1388572582
 20
-943.5138002368
 10
937.3785288497
 20
-948.637934822
 10
929.6043577433
 20
-953.4839653919
 10
921.8242515368
 20
-958.0469627443
 10
914.0461238648
 20
-962.3222855682
 10
906.2778863493
 20
-966.3055851642
 10
898.5274405526
 20
-969.9928098681
 10
890.8026699398
 20
-973.3802091722
 10
883.1114318602
 20
-976.4643375398
 10
875.4615495552
 20
-979.2420579103
 10
867.8608042004
 20
-981.7105448899
 10
860.3169269911
 20
-983.8672876254
 10
852.8375912788
 20
-985.7100923585
 10
845.4304047655
 20
-987.2370846566
 10
838.1029017656
 20
-988.4467113199
 10
830.8625355428
 20
-989.3377419614
 10
823.7166707281
 20
-989.9092702577
 10
816.6725758294
 20
-990.1607148714
 10
809.7374158381
 20
-990.0918200426
 10
802.9182449408
 20
-989.7026558485
 10
796.2219993446
 20
-988.9936181323
 10
789.6554902213
 20
-987.9654281009
 10
783.2253967798
 20
-986.619131591
 10
776.938259472
 20
-984.9560980052
 10
770.8004733399
 20
-982.9780189195
 10
764.8182815113
 20
-980.6869063624
 10
758.9977688493
 20
-978.0850907682
 10
753.3448557628
 20
-975.175218607
 10
751.283420375
 20
-974.0132839782
  0
LWPOLYLINE
  5
BD
330
1F
100
AcDbEntity
  8
0
  6
Continuous
 62
     7
370
    25
100
AcDbPolyline
 90
      129
 70
   128
 43
0.0
 10
969.1032244713
 20
-342.3845224076
 10
970.4272394416
 20
-342.1609969443
 10
977.7121003481
 20
-341.110534722
 10
984.9061306125
 20
-340.3791622566
 10
992.0020127349
 20
-339.967623473
 10
998.9925290481
 20
-339.8763369731
 10
1005.8705690588
 20
-340.1053956102
 10
1012.6291366806
 20
-340.6545663943
 10
1019.26135735
 20
-341.5232907294
 10
1025.7604850188
 20
-342.7106849813
 10
1032.119909016
 20
-344.2155413768
 10
1038.3331607723
 20
-346.0363292319
 10
1044.393920399
 20
-348.1711965091
 10
1050.2960231169
 20
-350.6179717006
 10
1056.0334655267
 20
-353.3741660379
 10
1061.6004117154
 20
-356.4369760225
 10
1066.9911991924
 20
-359.8032862781
 10
1072.2003446493
 20
-363.469672719
 10
1077.222549537
 20
-367.4324060335
 10
1082.0527054555
 20
-371.6874554766
 10
1086.6858993501
 20
-376.2304929703
 10
1091.1174185081
 20
-381.0568975058
 10
1095.3427553531
 20
-386.161759844
 10
1099.3576120298
 20
-391.5398875088
 10
1103.1579047752
 20
-397.1858100689
 10
1106.7397680729
 20
-403.0937847019
 10
1110.0995585848
 20
-409.2578020356
 10
1113.233858857
 20
-415.671592261
 10
1116.1394807959
 20
-422.3286315093
 10
1118.8134689108
 20
-429.2221484878
 10
1121.2531033207
 20
-436.3451313674
 10
1123.45590252
 20
-443.690334915
 10
1125.4196259035
 20
-451.2502878627
 10
1127.1422760447
 20
-459.0173005077
 10
1128.6221007279
 20
-466.9834725335
 10
1129.8575947307
 20
-475.1407010464
 10
1130.8475013543
 20
-483.4806888169
 10
1131.5908137027
 20
-491.9949527199
 10
1132.0867757062
 20
-500.6748323626
 10
1132.3348828906
 20
-509.5114988945
 10
1132.3348828906
 20
-518.4959639871
 10
1132.0867757062
 20
-527.6190889767
 10
1131.5908137027
 20
-536.87159416
 10
1130.8475013543
 20
-546.2440682328
 10
1129.8575947307
 20
-555.7269778633
 10
1128.6221007279
 20
-565.3106773885
 10
1127.1422760447
 20
-574.9854186257
 10
1125.4196259035
 20
-584.7413607881
 10
1123.45590252
 20
-594.5685804942
 10
1121.2531033207
 20
-604.4570818617
 10
1118.8134689108
 20
-614.3968066749
 10
1116.1394807959
 20
-624.3776446155
 10
1113.233858857
 20
-634.3894435463
 10
1110.0995585848
 20
-644.422019838
 10
1106.7397680729
 20
-654.4651687272
 10
1103.1579047752
 20
-664.5086746964
 10
1099.3576120298
 20
-674.5423218649
 10
1095.3427553531
 20
-684.5559043802
 10
1091.1174185081
 20
-694.5392367986
 10
1086.6858993501
 20
-704.4821644457
 10
1082.0527054555
 20
-714.3745737454
 10
1077.222549537
 20
-724.206402507
 10
1072.2003446493
 20
-733.9676501599
 10
1066.9911991924
 20
-743.6483879263
 10
1061.6004117154
 20
-753.2387689198
 10
1056.0334655267
 20
-762.7290381615
 10
1050.2960231169
 20
-772.1095425027
 10
1044.393920399
 20
-781.3707404433
 10
1038.3331607723
 20
-790.5032118372
 10
1032.119909016
 20
-799.4976674744
 10
1025.7604850188
 20
-808.344958529
 10
1019.26135735
 20
-817.0360858659
 10
1012.6291366806
 20
-825.5622091934
 10
1005.8705690588
 20
-833.9146560563
 10
998.9925290481
 20
-842.0849306562
 10
992.0020127349
 20
-850.0647224938
 10
984.9061306125
 20
-857.8459148216
 10
977.712100348
 20
-865.4205929002
 10
970.4272394416
 20
-872.781052049
 10
963.0589577827
 20
-879.9198054827
 10
955.6147501133
 20
-886.8295919268
 10
948.1021884045
 20
-893.5033830035
 10
940.5289141546
 20
-899.934390381
 10
932.9026306166
 20
-906.1160726778
 10
925.2310949622
 20
-912.0421421164
 10
917.5221103921
 20
-917.7065709197
 10
909.7835181988
 20
-923.1035974412
 10
902.0231897903
 20
-928.2277320265
 10
894.249018684
 20
-933.0737625963
 10
886.4689124775
 20
-937.6367599488
 10
878.6907848054
 20
-941.9120827727
 10
870.9225472899
 20
-945.8953823686
 10
863.1721014932
 20
-949.5826070726
 10
855.4473308805
 20
-952.9700063766
 10
847.7560928009
 20
-956.0541347442
 10
840.1062104959
 20
-958.8318551147
 10
832.505465141
 20
-961.3003420943
 10
824.9615879318
 20
-963.4570848299
 10
817.4822522195
 20
-965.2998895629
 10
810.0750657061
 20
-966.826881861
 10
802.7475627063
 20
-968.0365085244
 10
795.5071964834
 20
-968.9275391658
 10
788.3613316687
 20
-969.4990674621
 10
781.3172367701
 20
-969.7505120759
 10
774.3820767787
 20
-969.6816172471
 10
767.5629058815
 20
-969.2924530529
 10
760.8666602853
 20
-968.5834153367
 10
754.300151162
 20
-967.5552253054
 10
747.8700577205
 20
-966.2089287954
 10
741.5829204126
 20
-964.5458952097
 10
735.4451342806
 20
-962.567816124
 10
729.462942452
 20
-960.2767035668
 10
723.64242979
 20
-957.6748879726
 10
717.9895167034
 20
-954.7650158114
 10
712.5099531253
 20
-951.550046897
 10
707.2093126637
 20
-948.0332513761
 10
702.092986933
 20
-944.2182064023
 10
697.1661800695
 20
-940.1087924975
 10
692.4339034377
 20
-935.7091896045
 10
687.9009705335
 20
-931.0238728358
 10
683.5719920875
 20
-926.0576079212
 10
679.4513713755
 20
-920.8154463609
 10
675.5432997398
 20
-915.3027202864
 10
671.8517523253
 20
-909.5250370376
 10
668.3804840368
 20
-903.488273459
 10
665.1330257193
 20
-897.198569922
 10
662.1126805665
 20
-890.6623240791
 10
659.3225207612
 20
-883.8861843562
 10
658.2060706842
 20
-880.9325414949
  0
LWPOLYLINE
  5
BE
330
1F
100
AcDbEntity
  8
0
  6
Continuous
 62
     7
370
    25
100
AcDbPolyline
 90
      110
 70
   128
 43
0.0
 10
1011.7689167469
 20
-362.1230320401
 10
1013.1411800754
 20
-362.3580492743
 10
1019.3850833696
 20
-363.6361786993
 10
1025.4857717755
 20
-365.2327092284
 10
1031.4365742801
 20
-367.1458950789
 10
1037.230983768
 20
-369.3736442101
 10
1042.8626641377
 20
-371.9135206112
 10
1048.3254572293
 20
-374.7627469645
 10
1053.6133895588
 20
-377.9182076829
 10
1058.7206788498
 20
-381.3764523164
 10
1063.6417403564
 20
-385.1336993252
 10
1068.3711929702
 20
-389.185840215
 10
1072.9038651041
 20
-393.5284440291
 10
1077.2348003477
 20
-398.156762194
 10
1081.359262887
 20
-403.0657337119
 10
1085.2727426826
 20
-408.2499906943
 10
1088.9709604019
 20
-413.7038642324
 10
1092.4498720982
 20
-419.4213905956
 10
1095.7056736324
 20
-425.3963177527
 10
1098.7348048336
 20
-431.6221122086
 10
1101.5339533911
 20
-438.0919661485
 10
1104.1000584771
 20
-444.7988048821
 10
1106.4303140934
 20
-451.7352945796
 10
1108.5221721397
 20
-458.8938502915
 10
1110.3733451999
 20
-466.2666442422
 10
1111.9818090435
 20
-473.8456143897
 10
1113.3458048388
 20
-481.6224732415
 10
1114.4638410765
 20
-489.5887169165
 10
1115.3346952003
 20
-497.7356344444
 10
1115.9574149442
 20
-506.0543172903
 10
1116.3313193731
 20
-514.5356690967
 10
1116.455999628
 20
-523.1704156299
 10
1116.3313193731
 20
-531.9491149215
 10
1115.9574149442
 20
-540.8621675925
 10
1115.3346952003
 20
-549.8998273508
 10
1114.4638410765
 20
-559.052211648
 10
1113.3458048388
 20
-568.3093124865
 10
1111.9818090435
 20
-577.6610073622
 10
1110.3733451999
 20
-587.0970703341
 10
1108.5221721397
 20
-596.607183206
 10
1106.4303140934
 20
-606.180946809
 10
1104.1000584771
 20
-615.8078923732
 10
1101.5339533911
 20
-625.4774929749
 10
1098.7348048336
 20
-635.1791750479
 10
1095.7056736324
 20
-644.9023299452
 10
1092.4498720982
 20
-654.6363255398
 10
1088.9709604019
 20
-664.3705178503
 10
1085.2727426826
 20
-674.0942626804
 10
1081.359262887
 20
-683.7969272578
 10
1077.2348003477
 20
-693.4679018614
 10
1072.9038651041
 20
-703.0966114224
 10
1068.3711929702
 20
-712.6725270881
 10
1063.6417403564
 20
-722.1851777355
 10
1058.7206788498
 20
-731.6241614207
 10
1053.6133895588
 20
-740.9791567537
 10
1048.3254572293
 20
-750.2399341844
 10
1042.8626641377
 20
-759.3963671886
 10
1037.230983768
 20
-768.4384433413
 10
1031.4365742801
 20
-777.3562752649
 10
1025.4857717755
 20
-786.1401114413
 10
1019.3850833695
 20
-794.7803468744
 10
1013.1411800754
 20
-803.2675335937
 10
1006.7608895096
 20
-811.5923909852
 10
1000.2511884262
 20
-819.7458159394
 10
993.6191950878
 20
-827.718892806
 10
986.8721614818
 20
-835.5029031424
 10
980.0174653902
 20
-843.0893352476
 10
973.0626023228
 20
-850.4698934695
 10
966.01517732
 20
-857.636507276
 10
958.8828966378
 20
-864.5813400801
 10
951.6735593202
 20
-871.2967978092
 10
944.3950486718
 20
-877.7755372087
 10
937.0553236372
 20
-884.0104738724
 10
929.6624100979
 20
-889.9947899885
 10
922.2243920963
 20
-895.7219417951
 10
914.7494029959
 20
-901.1856667359
 10
907.2456165875
 20
-906.3799903079
 10
899.7212381515
 20
-911.2992325944
 10
892.184495485
 20
-915.9380144764
 10
884.6436299057
 20
-920.2912635138
 10
877.1068872393
 20
-924.3542194928
 10
869.5825088032
 20
-928.1224396307
 10
862.0787223949
 20
-931.5918034341
 10
854.6037332945
 20
-934.7585172045
 10
847.1657152929
 20
-937.6191181871
 10
839.7728017536
 20
-940.1704783565
 10
832.4330767189
 20
-942.409807838
 10
825.1545660706
 20
-944.3346579576
 10
817.945228753
 20
-945.9429239199
 10
810.8129480707
 20
-947.2328471098
 10
803.765523068
 20
-948.2030170152
 10
796.8106600005
 20
-948.8523727695
 10
789.955963909
 20
-949.1802043118
 10
783.208930303
 20
-949.186153163
 10
776.5769369646
 20
-948.8702128182
 10
770.0672358812
 20
-948.2327287535
 10
763.6869453154
 20
-947.2743980484
 10
757.4430420212
 20
-945.9962686234
 10
751.3423536153
 20
-944.3997380943
 10
745.3915511107
 20
-942.4865522438
 10
739.5971416227
 20
-940.2588031126
 10
733.9654612531
 20
-937.7189267115
 10
728.5026681615
 20
-934.8697003582
 10
723.214735832
 20
-931.7142396398
 10
718.107446541
 20
-928.2559950063
 10
713.1863850344
 20
-924.4987479975
 10
708.4569324206
 20
-920.4466071077
 10
703.9242602867
 20
-916.1040032936
 10
699.593325043
 20
-911.4756851287
 10
696.6355085957
 20
-908.0092540293
  0
LWPOLYLINE
  5
BF
330
1F
100
AcDbEntity
  8
0
  6
Continuous
 62
     7
370
    25
100
AcDbPolyline
 90
       60
 70
   128
 43
0.0
 10
716.9406682576
 20
-782.4616319448
 10
717.0657410206
 20
-774.2989859388
 10
717.4407999231
 20
-766.0023360517
 10
718.0653670093
 20
-757.5822551083
 10
718.938646363
 20
-749.0494732278
 10
720.0595251217
 20
-740.4148641496
 10
721.4265748952
 20
-731.6894313764
 10
723.0380535854
 20
-722.8842941519
 10
724.8919076064
 20
-714.0106732912
 10
726.9857745018
 20
-705.0798768815
 10
729.3169859552
 20
-696.1032858713
 10
731.8825711902
 20
-687.0923395676
 10
734.6792607567
 20
-678.0585210581
 10
737.703490697
 20
-669.0133425774
 10
740.9514070878
 20
-659.9683308369
 10
744.4188709508
 20
-650.9350123354
 10
748.1014635283
 20
-641.9248986705
 10
751.9944919131
 20
-632.9494718686
 10
756.0929950296
 20
-624.0201697532
 10
760.3917499559
 20
-615.1483713686
 10
764.8852785791
 20
-606.3453824794
 10
769.567854577
 20
-597.6224211631
 10
774.433510715
 20
-588.9906035138
 10
779.4760464507
 20
-580.4609294771
 10
784.6890358352
 20
-572.0442688318
 10
790.0658357023
 20
-563.7513473384
 10
795.5995941343
 20
-555.5927330705
 10
801.2832591933
 20
-547.5788229474
 10
807.1095879082
 20
-539.7198294851
 10
813.0711555047
 20
-532.0257677814
 10
819.1603648669
 20
-524.5064427539
 10
825.369456219
 20
-517.1714366445
 10
831.6905170134
 20
-510.0300968085
 10
838.1154920147
 20
-503.0915238031
 10
844.6361935645
 20
-496.3645597895
 10
851.2443120152
 20
-489.8577772657
 10
857.9314263198
 20
-483.5794681412
 10
864.6890147631
 20
-477.5376331712
 10
871.5084658209
 20
-471.73997176
 10
878.3810891349
 20
-466.1938721499
 10
885.2981265865
 20
-460.9064020056
 10
892.2507634582
 20
-455.8842994077
 10
899.2301396663
 20
-451.1339642661
 10
906.2273610518
 20
-446.6614501642
 10
913.233510715
 20
-442.4724566443
 10
920.2396603782
 20
-438.572321945
 10
927.2368817638
 20
-434.9660161977
 10
934.2162579719
 20
-431.6581350934
 10
941.1688948436
 20
-428.652894026
 10
948.0859322952
 20
-425.9541227206
 10
954.9585556092
 20
-423.5652603528
 10
961.778006667
 20
-421.4893511663
 10
968.5355951102
 20
-419.7290405931
 10
975.2227094149
 20
-418.2865718828
 10
981.8308278656
 20
-417.1637832435
 10
988.3515294153
 20
-416.3621054993
 10
994.7765044166
 20
-415.8825602673
 10
1001.0975652111
 20
-415.7257586553
 10
1007.3066565631
 20
-415.8919004832
 10
1009.7986685305
 20
-416.0518615102
  0
LWPOLYLINE
  5
C0
330
1F
100
AcDbEntity
  8
0
  6
Continuous
 62
     7
370
    25
100
AcDbPolyline
 90
       16
 70
   128
 43
0.0
 10
742.3514301969
 20
-879.3342642612
 10
740.9514070878
 20
-877.2327240833
 10
737.703490697
 20
-871.9376767873
 10
734.6792607567
 20
-866.3841998728
 10
731.8825711902
 20
-860.5793704058
 10
729.3169859552
 20
-854.5305857631
 10
726.9857745018
 20
-848.2455542055
 10
724.8919076064
 20
-841.7322850547
 10
723.0380535854
 20
-834.9990784867
 10
721.4265748952
 20
-828.0545149544
 10
720.0595251217
 20
-820.9074442532
 10
718.938646363
 20
-813.5669742434
 10
718.0653670093
 20
-806.0424592431
 10
717.4407999231
 20
-798.3434881082
 10
717.0657410206
 20
-790.4798720125
 10
716.9406682576
 20
-782.4616319448
  0
LWPOLYLINE
  5
C1
330
1F
100
AcDbEntity
  8
0
  6
Continuous
 62
     7
370
    25
100
AcDbPolyline
 90
       46
 70
   128
 43
0.0
 10
717.0095102954
 20
-788.4246215498
 10
717.0652745149
 20
-786.2648796236
 10
717.4389431458
 20
-777.7698537486
 10
718.0612239088
 20
-769.1512710306
 10
718.9313670041
 20
-760.4195161904
 10
720.0483239769
 20
-751.5851103126
 10
721.4107489811
 20
-742.6586981681
 10
723.0170004007
 20
-733.6510353883
 10
724.8651428279
 20
-724.5729755054
 10
726.952949395
 20
-715.4354568742
 10
729.2779044576
 20
-706.2494894932
 10
731.837206626
 20
-697.0261417376
 10
734.6277721404
 20
-687.7765270229
 10
737.6462385868
 20
-678.5117904146
 10
740.8889689482
 20
-669.2430951986
 10
744.352055987
 20
-659.9816094307
 10
748.031326953
 20
-650.73849248
 10
751.9223486115
 20
-641.5248815824
 10
756.0204325843
 20
-632.3518784214
 10
760.3206409993
 20
-623.2305357515
 10
764.8177924405
 20
-614.17184408
 10
769.5064681906
 20
-605.1867184249
 10
774.3810187605
 20
-596.2859851628
 10
779.4355706964
 20
-587.480368984
 10
784.664033657
 20
-578.7804799701
 10
790.0601077516
 20
-570.1968008098
 10
795.6172911311
 20
-561.7396741679
 10
801.3288878226
 20
-553.4192902233
 10
807.1880157967
 20
-545.2456743907
 10
813.1876152607
 20
-537.2286752404
 10
819.3204571645
 20
-529.3779526321
 10
825.5791519113
 20
-521.7029660749
 10
831.9561582613
 20
-514.21296333
 10
838.4437924187
 20
-506.9169692672
 10
845.0342372895
 20
-499.8237749912
 10
851.7195519011
 20
-492.9419272485
 10
858.4916809699
 20
-486.2797181297
 10
865.3424646079
 20
-479.8451750778
 10
872.2636481545
 20
-473.6460512162
 10
879.2468921226
 20
-467.6898160061
 10
886.283782247
 20
-461.9836462471
 10
893.3658396232
 20
-456.5344174294
 10
900.4845309238
 20
-451.3486954491
 10
907.6312786801
 20
-446.4327286975
 10
914.7974716178
 20
-441.7924405315
 10
918.3998549006
 20
-439.568513254
  0
ENDSEC
  0
SECTION
  2
OBJECTS
  0
DICTIONARY
  5
C
330
0
100
AcDbDictionary
281
     1
  3
ACAD_GROUP
350
D
  3
ACAD_LAYOUT
350
1A
  3
ACAD_MLINESTYLE
350
17
  3
ACAD_PLOTSETTINGS
350
19
  3
ACAD_PLOTSTYLENAME
350
E
  3
ACAD_SCALELIST
350
47
  0
DICTIONARY
  5
D
102
{ACAD_REACTORS
330
C
102
}
330
C
100
AcDbDictionary
281
     1
  0
DICTIONARY
  5
1A
102
{ACAD_REACTORS
330
C
102
}
330
C
100
AcDbDictionary
281
     1
  3
Layout1
350
1E
  3
Layout2
350
26
  3
Model
350
22
  0
DICTIONARY
  5
17
102
{ACAD_REACTORS
330
C
102
}
330
C
100
AcDbDictionary
281
     1
  3
Standard
350
18
  0
DICTIONARY
  5
19
102
{ACAD_REACTORS
330
C
102
}
330
C
100
AcDbDictionary
281
     1
  0
ACDBDICTIONARYWDFLT
  5
E
102
{ACAD_REACTORS
330
C
102
}
330
C
100
AcDbDictionary
281
     1
  3
Normal
350
F
100
AcDbDictionaryWithDefault
340
F
  0
DICTIONARY
  5
47
102
{ACAD_REACTORS
330
C
102
}
330
C
100
AcDbDictionary
281
     1
  3
A0
350
48
  3
A1
350
49
  3
A2
350
4A
  3
A3
350
4B
  3
A4
350
4C
  3
A5
350
4D
  3
A6
350
4E
  3
A7
350
4F
  3
A8
350
50
  3
A9
350
51
  3
B0
350
52
  3
B1
350
53
  3
B2
350
54
  3
B3
350
55
  3
B4
350
56
  3
B5
350
57
  3
B6
350
58
  3
B7
350
59
  3
B8
350
5A
  3
B9
350
5B
  3
C0
350
5C
  3
C1
350
5D
  3
C2
350
5E
  3
C3
350
5F
  3
C4
350
60
  3
C5
350
61
  3
C6
350
62
  3
C7
350
63
  3
C8
350
64
  3
C9
350
65
  3
D0
350
66
  3
D1
350
67
  3
D2
350
68
  0
LAYOUT
  5
1E
102
{ACAD_REACTORS
330
1A
102
}
330
1A
100
AcDbPlotSettings
  1

  2
none_device
  4

  6

 40
0.0
 41
0.0
 42
0.0
 43
0.0
 44
0.0
 45
0.0
 46
0.0
 47
0.0
 48
0.0
 49
0.0
140
0.0
141
0.0
142
1.0
143
1.0
 70
   688
 72
     1
 73
     0
 74
     5
  7

 75
    16
147
1.0
148
0.0
149
0.0
100
AcDbLayout
  1
Layout1
 70
     1
 71
     1
 10
0.0
 20
0.0
 11
420.0
 21
297.0
 12
0.0
 22
0.0
 32
0.0
 14
1.0000000000E+20
 24
1.0000000000E+20
 34
1.0000000000E+20
 15
-1.0000000000E+20
 25
-1.0000000000E+20
 35
-1.0000000000E+20
146
0.0
 13
0.0
 23
0.0
 33
0.0
 16
1.0
 26
0.0
 36
0.0
 17
0.0
 27
1.0
 37
0.0
 76
     0
330
1B
  0
LAYOUT
  5
26
102
{ACAD_REACTORS
330
1A
102
}
330
1A
100
AcDbPlotSettings
  1

  2
none_device
  4

  6

 40
0.0
 41
0.0
 42
0.0
 43
0.0
 44
0.0
 45
0.0
 46
0.0
 47
0.0
 48
0.0
 49
0.0
140
0.0
141
0.0
142
1.0
143
1.0
 70
   688
 72
     1
 73
     0
 74
     5
  7

 75
    16
147
1.0
148
0.0
149
0.0
100
AcDbLayout
  1
Layout2
 70
     1
 71
     2
 10
0.0
 20
0.0
 11
0.0
 21
0.0
 12
0.0
 22
0.0
 32
0.0
 14
0.0
 24
0.0
 34
0.0
 15
0.0
 25
0.0
 35
0.0
146
0.0
 13
0.0
 23
0.0
 33
0.0
 16
1.0
 26
0.0
 36
0.0
 17
0.0
 27
1.0
 37
0.0
 76
     0
330
23
  0
LAYOUT
  5
22
102
{ACAD_REACTORS
330
1A
102
}
330
1A
100
AcDbPlotSettings
  1

  2
none_device
  4
Letter_(8.50_x_11.00_Inches)
  6

 40
6.35
 41
6.35
 42
6.35000508
 43
6.35000508
 44
215.9
 45
279.4
 46
0.0
 47
0.0
 48
0.0
 49
0.0
140
0.0
141
0.0
142
1.0
143
1.0
 70
  1712
 72
     1
 73
     0
 74
     0
  7

 75
     0
147
1.0
148
0.0
149
0.0
100
AcDbLayout
  1
Model
 70
     1
 71
     0
 10
0.0
 20
0.0
 11
279.4
 21
215.9
 12
0.0
 22
0.0
 32
0.0
 14
0.0
 24
0.0
 34
0.0
 15
279.4
 25
215.9
 35
0.0
146
0.0
 13
0.0
 23
0.0
 33
0.0
 16
1.0
 26
0.0
 36
0.0
 17
0.0
 27
1.0
 37
0.0
 76
     0
330
1F
331
29
  0
MLINESTYLE
  5
18
102
{ACAD_REACTORS
330
17
102
}
330
17
100
AcDbMlineStyle
  2
Standard
 70
     0
  3

 62
   256
 51
90.0
 52
90.0
 71
     2
 49
0.5
 62
   256
  6
BYLAYER
 49
-0.5
 62
   256
  6
BYLAYER
  0
ACDBPLACEHOLDER
  5
F
102
{ACAD_REACTORS
330
E
102
}
330
E
  0
SCALE
  5
48
102
{ACAD_REACTORS
330
47
102
}
330
47
100
AcDbScale
 70
     0
300
1:1
140
1.0
141
1.0
290
     1
  0
SCALE
  5
49
102
{ACAD_REACTORS
330
47
102
}
330
47
100
AcDbScale
 70
     0
300
1:2
140
1.0
141
2.0
290
     0
  0
SCALE
  5
4A
102
{ACAD_REACTORS
330
47
102
}
330
47
100
AcDbScale
 70
     0
300
1:4
140
1.0
141
4.0
290
     0
  0
SCALE
  5
4B
102
{ACAD_REACTORS
330
47
102
}
330
47
100
AcDbScale
 70
     0
300
1:5
140
1.0
141
5.0
290
     0
  0
SCALE
  5
4C
102
{ACAD_REACTORS
330
47
102
}
330
47
100
AcDbScale
 70
     0
300
1:8
140
1.0
141
8.0
290
     0
  0
SCALE
  5
4D
102
{ACAD_REACTORS
330
47
102
}
330
47
100
AcDbScale
 70
     0
300
1:10
140
1.0
141
10.0
290
     0
  0
SCALE
  5
4E
102
{ACAD_REACTORS
330
47
102
}
330
47
100
AcDbScale
 70
     0
300
1:16
140
1.0
141
16.0
290
     0
  0
SCALE
  5
4F
102
{ACAD_REACTORS
330
47
102
}
330
47
100
AcDbScale
 70
     0
300
1:20
140
1.0
141
20.0
290
     0
  0
SCALE
  5
50
102
{ACAD_REACTORS
330
47
102
}
330
47
100
AcDbScale
 70
     0
300
1:30
140
1.0
141
30.0
290
     0
  0
SCALE
  5
51
102
{ACAD_REACTORS
330
47
102
}
330
47
100
AcDbScale
 70
     0
300
1:40
140
1.0
141
40.0
290
     0
  0
SCALE
  5
52
102
{ACAD_REACTORS
330
47
102
}
330
47
100
AcDbScale
 70
     0
300
1:50
140
1.0
141
50.0
290
     0
  0
SCALE
  5
53
102
{ACAD_REACTORS
330
47
102
}
330
47
100
AcDbScale
 70
     0
300
1:100
140
1.0
141
100.0
290
     0
  0
SCALE
  5
54
102
{ACAD_REACTORS
330
47
102
}
330
47
100
AcDbScale
 70
     0
300
2:1
140
2.0
141
1.0
290
     0
  0
SCALE
  5
55
102
{ACAD_REACTORS
330
47
102
}
330
47
100
AcDbScale
 70
     0
300
4:1
140
4.0
141
1.0
290
     0
  0
SCALE
  5
56
102
{ACAD_REACTORS
330
47
102
}
330
47
100
AcDbScale
 70
     0
300
8:1
140
8.0
141
1.0
290
     0
  0
SCALE
  5
57
102
{ACAD_REACTORS
330
47
102
}
330
47
100
AcDbScale
 70
     0
300
10:1
140
10.0
141
1.0
290
     0
  0
SCALE
  5
58
102
{ACAD_REACTORS
330
47
102
}
330
47
100
AcDbScale
 70
     0
300
100:1
140
100.0
141
1.0
290
     0
  0
SCALE
  5
59
102
{ACAD_REACTORS
330
47
102
}
330
47
100
AcDbScale
 70
     0
300
1/128" = 1'-0"
140
0.0078125
141
12.0
290
     0
  0
SCALE
  5
5A
102
{ACAD_REACTORS
330
47
102
}
330
47
100
AcDbScale
 70
     0
300
1/64" = 1'-0"
140
0.015625
141
12.0
290
     0
  0
SCALE
  5
5B
102
{ACAD_REACTORS
330
47
102
}
330
47
100
AcDbScale
 70
     0
300
1/32" = 1'-0"
140
0.03125
141
12.0
290
     0
  0
SCALE
  5
5C
102
{ACAD_REACTORS
330
47
102
}
330
47
100
AcDbScale
 70
     0
300
1/16" = 1'-0"
140
0.0625
141
12.0
290
     0
  0
SCALE
  5
5D
102
{ACAD_REACTORS
330
47
102
}
330
47
100
AcDbScale
 70
     0
300
3/32" = 1'-0"
140
0.09375
141
12.0
290
     0
  0
SCALE
  5
5E
102
{ACAD_REACTORS
330
47
102
}
330
47
100
AcDbScale
 70
     0
300
1/8" = 1'-0"
140
0.125
141
12.0
290
     0
  0
SCALE
  5
5F
102
{ACAD_REACTORS
330
47
102
}
330
47
100
AcDbScale
 70
     0
300
3/16" = 1'-0"
140
0.1875
141
12.0
290
     0
  0
SCALE
  5
60
102
{ACAD_REACTORS
330
47
102
}
330
47
100
AcDbScale
 70
     0
300
1/4" = 1'-0"
140
0.25
141
12.0
290
     0
  0
SCALE
  5
61
102
{ACAD_REACTORS
330
47
102
}
330
47
100
AcDbScale
 70
     0
300
3/8" = 1'-0"
140
0.375
141
12.0
290
     0
  0
SCALE
  5
62
102
{ACAD_REACTORS
330
47
102
}
330
47
100
AcDbScale
 70
     0
300
1/2" = 1'-0"
140
0.5
141
12.0
290
     0
  0
SCALE
  5
63
102
{ACAD_REACTORS
330
47
102
}
330
47
100
AcDbScale
 70
     0
300
3/4" = 1'-0"
140
0.75
141
12.0
290
     0
  0
SCALE
  5
64
102
{ACAD_REACTORS
330
47
102
}
330
47
100
AcDbScale
 70
     0
300
1" = 1'-0"
140
1.0
141
12.0
290
     0
  0
SCALE
  5
65
102
{ACAD_REACTORS
330
47
102
}
330
47
100
AcDbScale
 70
     0
300
1-1/2" = 1'-0"
140
1.5
141
12.0
290
     0
  0
SCALE
  5
66
102
{ACAD_REACTORS
330
47
102
}
330
47
100
AcDbScale
 70
     0
300
3" = 1'-0"
140
3.0
141
12.0
290
     0
  0
SCALE
  5
67
102
{ACAD_REACTORS
330
47
102
}
330
47
100
AcDbScale
 70
     0
300
6" = 1'-0"
140
6.0
141
12.0
290
     0
  0
SCALE
  5
68
102
{ACAD_REACTORS
330
47
102
}
330
47
100
AcDbScale
 70
     0
300
1'-0" = 1'-0"
140
12.0
141
12.0
290
     0
  0
ENDSEC
  0
EOF
